Tabs: She-Wolf


Cryptic Writings

06/1997 - Cryptic Writings

Megadeth - She-Wolf


Intro and verse:

  |p.m. - -   -  - - -   -  - - -   -  - - -   - - -   - - -
|---------------------------------------------------------------|
|---------------------------------------------------------------|
|---------------------------------------------------------------|
|---------------------------------------------------------------|
|---------------------------------------------------------------|
|--0--0-0-0---0--0-0-0---0--0-0-0---0--0-0-0---0-0-0---0-0-0----|

"wicked temptress..."

|----------------------------------------------------------------|
|----------------------------------------------------------------|
|---------8----------8-------------------------------------------|
|---------8----------8-------------------------------------------|
|--10---------10---------10---------10-\--------10-\---------10--|
|---8----------8----------8----6-7---8-\---6-7---8-\----6-7---8--|

             - - - -   -  - - -   -  - - -   - - -  - - -  - - - 
|----------------------------------------------------------------|
|----------------------------------------------------------------|
|----------------------------------------------------------------|
|----------------------------------------------------------------|
|-------10-------------------------------------------------------|
|--6-7---8---8-8-8-8---8--8-8-8---8--8-8-8---8-8-8--8-8-8--8-8-8-|

2nd time:

|---------------------------------|
|---------------------------------|
|---------------------------------|
|---------------------------------|
|-------10-----9---8------2-------|
|--6-7---8-----7---6------0-------|

Pre-chorus:

|---------------------------|
|---------------------------|
|---------------------------|
|----5--------3-----8-------|
|----5--------3-----6-------|
|----3--------1-----6-------|

Chorus:

|------------------------------------------------------------------|
|------------------------------------------------------------------|
|---5-----3-------------------------5-----3------------------------|
|---5-----3------3------8-----------5-----3------3------5----------|
|---3-----1------3------6-----------3-----1------3------5----------|
|----------------1------6------------------------1------3-----0----|

|-------------------------------|
|-------------------------------|
|-------------------------------|
|------------------------1------|
|-----5-/-6-\-5----3-----1------|
|-----3-/-4-\-3----1------------|

Then:
       - - - - - - -          - - - - - - -           - - - - - - - 
|---------------------------------------------------------------------|
|---------------------------------------------------------------------|
|---------------------------------------------------------------------|
|---------------------------------------------------------------------|
|-10----------------------8-----------------------6-------------------|
|--8---8-8-8-8-8-8-8------6---6-6-6-6-6-6-6-------4---4-4-4-4-4-4-4---|

        - - - 
|------------------------------|
|------------------------------|
|------------------------------|
|------------------------------|
|---5-----------8-----9--------|      play twice
|---3---3-3-3---6-----7--------|
  
Then:
	Lead:

|------------------------------------------------------|
|------------------------------------------------------|
|------------------------------------------------------|
|----------------------15------------------------------|
|---15----17--18-----------18--17--18--17---15---------|
|------------------------------------------------18----|

|------------------------------------------------------|
|------------------------------------------------------|
|---15-------------------------------------------------|
|---------18--17--15---18--17--15----------------------|
|------------------------------------18----------------|
|-------------------------------------------16---------|

|-----------------------------------------------------------------|
|-----------------------------------------------------------------|
|-----------------------------------------------------------------|
|-----------------12----------------------------------------------|
|-------------13-------------11------------10--------11-----------|
|---11--13-----------11--13---------11--13---------13-------13----|

E)-----------------------------------------------------------------|
B)-----------------------------------------------------------------|
G)-----------------------------------------------------------------|
D)----------------------12-----------------------------------------|
A)---10--11---------13----------11----------13--14-----------------|
E)--------------13----------13---------13--------------------------|

	Rhythm:

          - - - - - - - - - - - - - -
|----------------------------------------------|
|----------------------------------------------|
|----------------------------------------------|
|----------------------------------------------|
|---10-----------------------------------------|
|----8----8-8-8-8-8-8-8-8-8-8-8-8-8-8----------|

          - - - - - - - - - - - - - - -
|----------------------------------------------|
|----------------------------------------------|
|----------------------------------------------|
|----------------------------------------------|
|----8-----------------------------------------|
|----6----6-6-6-6-6-6-6-6-6-6-6-6-6-6-6--------|

          - - - - - - - - - - - - - 
|----------------------------------------------|
|----------------------------------------------|
|----------------------------------------------|
|----------------------------------------------|
|----6-----------------------------------------|
|----4----4-4-4-4-4-4-4-4-4-4-4-4-4------------|

          - - - - - -         - - - - - 
|----------------------------------------------|
|----------------------------------------------|
|----------------------------------------------|
|----------------------------------------------|
|----5-------------------8-----------------9---|
|----3----3-3-3-3-3-3----6----6-6-6-6-6----7---|

Repeat, then:

	Lead:

|----------------------------------------------------------------------|
|----------------------------------------------------------------------|
|----------------------------------------------------------------------|
|---13--12----------12--13-----------13--12-----------12--13-----------|
|---------------15--------------13---------------15--------------11----|
|----------------------------------------------------------------------|

|----------------------------------------------------------------------|
|----------------------------------------------------------------------|
|----------------------------------------------------------------------|
|---13--12----------12--13-----------13--12-----------12--13-----------|
|---------------15--------------10---------------15--------------15----|
|----------------------------------------------------------------------|

	Rhythm:

         - - - - - -         - - - - - -         - - - - - -
|---------------------------------------------------------------------|
|---------------------------------------------------------------------|
|---------------------------------------------------------------------|
|---------------------------------------------------------------------|
|--10-------------------8-------------------6-------------------------|
|---8----8-8-8-8-8-8----6----6-6-6-6-6-6----4----4-4-4-4-4-4----------|

          - - -
|----------------------------------|
|----------------------------------|
|----------------------------------|
|----------------------------------|
|----5----------------8--9---------|
|----3----3-3-3-------6--7---------|

Play those lead and rhythm parts 4 times

Outro lead:

|-------------------------------------------------|
|-------------------------------------------------|
|-------------------------------------------------|
|---13-13-13--12-h-13-p-12---------13-------------|
|----------------------------------15--------13---|
|-------------------------------------------------|

|------------------------------------------------|
|------------------------------------------------|
|------------------------------------------------|
|---13-13-13--12-h-13-p-12---------13------------|
|----------------------------------15--------11--|
|------------------------------------------------|

|------------------------------------------------|
|------------------------------------------------|
|------------------------------------------------|
|---13-13-13--12-h-13-p-12---------13------------|
|----------------------------------15--------10--|
|------------------------------------------------|

|-------------------------------------------------|
|-------------------------------------------------|
|-------------------------------------------------|
|---13-13-13--12-h-13-p-12---------13-------------|
|----------------------------------15--------15---|
|-------------------------------------------------|

Outro rhythm:
                                - - -
|------------------------------------------------|
|------------------------------------------------|
|------------------------------------------------|
|------------------------------------------------|
|--10-------8-------6-------5------------8----9--|
|---8-------6-------4-------3---3-3-3----6----7--|